Пятница - Нева

Аккорды для гитары, текст песни, как играть, видео уроки

[в две колонки] [аккорды в строке]

Перевести в тональность | A | A# | H | C | C# | D | D# | E | F | F# | G | G# |

Вариант 1

e|---------------------------|
B|---8~----8~----5~------6~--|
G|---7~----7~----6~------5~--|
D|---8~----8~----5~------7~--|
A|-7-----6-------------5-----|
E|-------------5-----5-------|

Вариант 2

e|---2~----2~-----------------|
B|---2~----2~-----4~------5~--|
G|---2~----2~-----5~------4~--|
D|-1-----0--------4~------6~--|
A|----------------------4-----|
Е|-------------4------4-------|
 

C9/E D#maj7 A7 Dm7/A Спроси Неву, ты знаешь, я давно живу Уйти, куда? - туда где время не вода С собой возьми, и я возьму с собой тебя Мне объясни, что слишком мало декабря нам

Смотри в меня, сотри себя и будь во мне В последний раз твоя вода в моем окне Снега немы, немыслимые эти сны Они над ледяным унынием не властны

Припев: Нева-нева-нева-неважно, ни боли, ни жажды Крылатым умирает каждый, рождая дожди Нева-нева-нева-неважно, ни боли, ни жажды

Умрет и наш мираж верашний однажды дожди Лью, бью в стекло, люблю светло

Выше или ниже, я тебя не вижу, hallowa Черными цепями оцепили памяти острова За закрытыми дверями море времени теряем Все, что мы узнаем, не расскажем им

Припев.

Молчание твое во мне растает, а На дне твоем одни живут случайные Течения, не ты, мы не давали обещания Не разводить мосты

 

Перевести в тональность | A | A# | H | C | C# | D | D# | E | F | F# | G | G# |

Аккорды песен Пятница

Остались вопросы? Задавайте)

C9/E
Аппликатура аккорда C9/E

D#maj7
Аппликатура аккорда D#maj7

A7
Аппликатура аккорда A7

Dm7/A
Аппликатура аккорда Dm7/A