Пятница - Ушедшим слишком рано

Аккорды для гитары, текст песни, как играть, видео уроки

[в две колонки] [аккорды в строке]

Перевести в тональность | A | A# | H | C | C# | D | D# | E | F | F# | G | G# |

Вступление/Куплет

e|-----------------------------------------------------------------|
B|----5-5-5-5---5----5-5-5-5----5-----3-3-3-3---3----3-3-3-3---3---|
G|----4-4-4-4---4----4-4-4-4----4-----2-2-2-2---2----2-2-2-2---2---|
D|----5-5-5-5---5----5-5-5-5----5-----3-3-3-3---3----3-3-3-3---3---|
A|-3---------------3---------------1---------------1---------------|
E|------------3---------------3---------------1--------------1-----|

Припев

E|----------------------------------------------------------------------|
B|-------5---------5----------5------5-----3-3-3-3---3-----3-3-3-3----3-|
G|-----4---4-------4--------4---4----4-----2-2-2-2---2-----2-2-2-2----2-|
D|---5-------5-----5------5-------5--5-----3-3-3-3---3-----3-3-3-3----3-|
A|-3--------------------3---------------1----------------1--------------|
E|---------------3-------------------3-------------1----------------1---|
 

Cmaj7/G A#maj7/F Cmaj7/G Слава Безумная орава, крики "Браво!" A#maj7/F Все время мало голо-голова идет кругом Каждый хочет быть твоим другом Не слишком ли много желаний для одного джина?

Напружена пружина Сердце не машина, стертая шина Оставляет след длинной 27 лет, как у Джима, Но я Сан, я не Моррисон Слишком рано к небесам

Припев x2: Comе on baby, light my fire Так ярко летают, так быстро сгорают

Так тесно, не хватает места Вырванные временем страницы, Лица сливаются в одно, немедленно Но слишком быстро скользят по краю, играют Пока не упадут, идут выше и выше Вывернутые наружу, не будет хуже Уже, на последнем этаже - одно и тоже, Мы все похожи, кто же вы, кто же?

Припев.

Открытые двери захлопнули с той стороны, Оторваны От земли до луны расстояние стены, мы разделены Но мы рядом, так надо - не нам Маленьким телам - большие души Раскололись пополам, воды больше, чем суши Слушай, они говорят об одном Наш дом - между небом и дном

Припев.

Я посвящаю эту песню ушедшим слишком рано Пока она живая - ножевая рана Посвящаю эту песню ушедшим слишком рано Пока она живая - ножевая рана Посвящаю эту песню ушедшим слишком рано Пока она живая - ножевая рана Пока она живая - ножевая рана

- Группа крови... ...I wanna jam it with you... ...Polly wants a cracker... - Порвали парус...

 

Перевести в тональность | A | A# | H | C | C# | D | D# | E | F | F# | G | G# |

Аккорды песен Пятница

Остались вопросы? Задавайте)

Cmaj7/G
Аппликатура аккорда Cmaj7/G

A#maj7/F
Аппликатура аккорда A#maj7/F