Пятница - Весна

Аккорды для гитары, текст песни, как играть, видео уроки

[в две колонки] [аккорды в строке]

Перевести в тональность | A | A# | H | C | C# | D | D# | E | F | F# | G | G# |

вступление и куплет

e|---------2-2-2------------------h6----|
H|--4-4-4--3-3-3--3-3-3--8-8-8-h8----h8-|
G|--5-5-5--2-2-2--3-3-3--7-7-7----------|
D|--5-5-5--0-0-0--5-5-5--8-8-8----------|
A|--0-0-0---------5-5-5--6-6-6----------|
E|--------------------------------------|
    

окончание

e|--------------------------------------------------------------------|
H|---4---4----4-4---4------3---3---3-3---3------8---8-----8-8---8-----|
G|---5---5----5-5---5------3---3---3-3---3------7---7-----7-7---7-----|
D|---5---5----5-5---5------5---5---5-5---5------8---8-----8-8---8-----|
A|-0--------0-----------5--------5------------6---------6-------------|
E|-----0------------0-------3----------3----------6-------------6-----|
    
 

Cm/A D Gm D#maj7

Улица лица длится не спится, Засыпаю не могу остановиться Зажигаю, наблюдаю за собой там, Со стороны, Pаны

Не зажили, долго кружили. Вдох Снова тени ожили. Были любили забыли оставили там.

Я не вернусь, и снова не будет Весны. Я поднимусь, я уже не боюсь Высоты

Я так хочу, чтобы ты, Я так хочу, чтобы я, Часами, словами, весами грузили Себя.

Ночь наступает на пятки, Звуки играют в прятки. Сладкие взятки прячутся их Не достать, до них не добраться

Можно смеяться, не приземляться. Трудно понять, легко догадаться.

Нет, не отнять того, что бы было, Опять догонять, время не ждать Можно сгореть, не успеть, не допеть, Не догнать, не узнать, потеряться.

Можно смеяться, не приземляться. Трудно понять, легко догадаться.

Я не вернусь, и снова не будет Весны. Я поднимусь, я уже не боюсь Высоты

Я так хочу, чтобы ты, Я так хочу, чтобы я, Стихами, кругами, руками закрыли Себя.

На ответы у меня есть вопросы, Папиросы, расспросы, спроси меня: Где ты? - Нигде, я иду никуда. Да, горят провода, это

Правда. Сухая вода, Бесконечная нота. Спроси меня: Кто ты? - Никто, но я здесь Навсегда.

Я же вернусь, и снова наступит Весна. Когда я проснусь, я узнаю - Тебе не до сна Я так хочу чтобы ты, Я так хочу чтобы я, Дышали одной тишиной и не видели Дня.

Я так хочу, чтобы ты. Я так хочу, чтобы я.

 

Перевести в тональность | A | A# | H | C | C# | D | D# | E | F | F# | G | G# |

Аккорды песен Пятница

Остались вопросы? Задавайте)

Cm/A
Аппликатура аккорда Cm/A

D
Аппликатура аккорда D

Gm
Аппликатура аккорда Gm

D#maj7
Аппликатура аккорда D#maj7