Пятница - Я с тобой

Аккорды для гитары, текст песни, как играть, видео уроки

[в две колонки] [аккорды в строке]

Перевести в тональность | A | A# | H | C | C# | D | D# | E | F | F# | G | G# |

Вступление

e|-----------------------|
B|-2-2--2~2--3-3--1--1---|
G|-1-1--0~0--0-0--0----0-|
D|-2-2--0~0--2-2--2------|
A|-0-0--2~2--3-3--0------|
E|-----------------------|

Куплет

e|-------------------|
B|-2-2--2~2--3-3--1--|
G|-1-1--0~0--0-0--0--|
D|-2-2--0~0--2-2--2--|
A|-0-0--2~2--3-3--0--|
E|-------------------|

Куплет

e|-------------------------------------------------------------------------|
B|---5---5---5---5-----4---4---4---4-----3---3---3---3-----2---2---2---2---|
G|---4---4---4---4-----2---2---2---2-----2---2---2---2-----1---1---1---1---|
D|---5---5---5---5-----4---4---4---4-----3---3---3---3-----2---2---2---2---|
A|-3-------3-------3-2-------2-------2-1-------1-------1-0-------0-------0-|
E|-----3-------3---------2-------2---------1-------1---------0-------0-----|
 

Amaj7 H9 Иди ко мне Cadd9 D7sus2/A И холодно и смешно мне Как буд-то снег На дне и нет его вода ли слёзы Мне не равно ли Все нули равны нулю нам сказали минуту назад Что завтра не будет Мы больные люди Мы любили мы любим мы будем Но об этом ни слова, ни злого Не повезло вам, Я не верю словам...я не верю словам.

Припев: Cmaj7 Я с тобой мы ветра двери пропасти Hmaj7 Я с тобой нас не спасти стой прасти A#maj7 Я с тобой после нежной жестокости Amaj7 Я с тобой о-о-о-о-о-о

Я с тобой улыбаются улицы Я с тобой волны берегу шёпотом Я с тобой наше небо волнуется Я с тобой пропади оно пропадом

Па-па-па-па-па-па-па-па-па-па-па-па

Придумай мне Имя намекни мне Приснись, прикоснись весна не со мной новый снег нет покоя, Нет покоя пока я не успокоюсь Не моя дорога ты с высоты, в пустоту Мой свет твой день где ты... Ветра уносят ночью I`m in love with you, in love with you Так устал играть, выбирать, Но я так и не успел тебе сказать.

Видео: Как играть?

Хм. Ещё никто не прислал ни кавер, ни видеоурок к этой песне. [Прислать видео]

 

Перевести в тональность | A | A# | H | C | C# | D | D# | E | F | F# | G | G# |

Аккорды песен Пятница

Остались вопросы? Задавайте)

Amaj7
Аппликатура аккорда Amaj7

H9
Аппликатура аккорда H9

Cadd9
Аппликатура аккорда Cadd9

D7sus2/A
Аппликатура аккорда D7sus2/A

Cmaj7
Аппликатура аккорда Cmaj7

Hmaj7
Аппликатура аккорда Hmaj7

A#maj7
Аппликатура аккорда A#maj7