Сергей Бабкин - Забери

Аккорды для гитары, текст песни, как играть, видео уроки

[в две колонки] [аккорды в строке]

Перевести в тональность | A | A# | H | C | C# | D | D# | E | F | F# | G | G# |

Оригинальные табы

e|--------0-----------------0-----------------0--------------------------------| 
H|-----------------------------------------------------------------------------| 
G|------4---4---4---------4---4---4---------4---4---4---------4------4---------| 
D|----5-------5---5-----5-------5---5-----5-------5---5-----5------5------5----| 
A|--------------------------------------------------------2------3------5------| 
E|-3-----------------2-----------------0---------------------------------------|

Упрощенные

e|-------0---------------0----------------0---------------------------|
H|-----0---0---0-------0---0---0--------0---0---0-------0-----0-------|
G|---0-------0---0---0-------0---0----0-------0---0---0-----0-----0---|
D|--------------------------------------------------------------------|
A|--------------------------------------------------2-----3-----5-----|
E|-3---------------2----------------0---------------------------------|

Соло флейты

e|--------7~-----------7~---------7-8-7----------------------------------|
H|-8-7--8-----8-7--8~------8-10~--------10-8~--8-7--8--5~--8-7--8-----5~-|
G|----------------------------------------------------------------7~-----|
D|-----------------------------------------------------------------------|
A|-----------------------------------------------------------------------|
E|-----------------------------------------------------------------------|
e|------------7-8-7--------7~-----------7~---------7-8--7-8-7~--|
H|---5-7-8-10-------8-7-8------8-7--8~------8-10~---------------|
G|-7------------------------------------------------------------|
D|--------------------------------------------------------------|
A|--------------------------------------------------------------|
E|--------------------------------------------------------------|
e|----------7~---------7-8--7-8-7~------------------------------|
H|-8-7--8~------8-10~----------------8-7--8--5~--8-7--8-----5~--|
G|------------------------------------------------------7~------|
D|--------------------------------------------------------------|
A|--------------------------------------------------------------|
E|--------------------------------------------------------------|
 

G G/F# G/E G/C G/D G/E

Забери меня к себе, Я так устал бежать, За тобою вслед

Открой глаза, закрой лицо руками , Свет, я хочу увидеть свет, Между нами.

Пустота неистова во мне,

Понять меня Не переубедить,

Прыжок мангуста, пуста, пуста, Жить, я боюсь так дальше жить, В ультралюстрах.

Отпусти, с невыносимою утратой, У трапа- Йдём, домой.

Запусти себя, в кратеры моей души, Дыши, дыши, дыши, Я сам нажму все клапаны.

Видео: Как играть?

Хм. Ещё никто не прислал ни кавер, ни видеоурок к этой песне. [Прислать видео]

 

Перевести в тональность | A | A# | H | C | C# | D | D# | E | F | F# | G | G# |

Аккорды песен Сергей Бабкин

Остались вопросы? Задавайте)

G
Аппликатура аккорда G

G/F#
Аппликатура аккорда G/F#

G/E
Аппликатура аккорда G/E

G/C
Аппликатура аккорда G/C

G/D
Аппликатура аккорда G/D