Сплин - Романс

Аккорды для гитары, текст песни, как играть, видео уроки

[в две колонки] [аккорды в строке]

Перевести в тональность | A | A# | H | C | C# | D | D# | E | F | F# | G | G# |

E7 Am x2

e|-----------------------------------------------0-----|
B|-----------0--------0---------------0s1--------------|
G|--------1-----1--------1---------2-------2--------2--|
D|-----0-----------0------------2-------------2--------|
A|--2------------------------0-------------------------|
E|-----------------------------------------------------|

Dm C

e|-----------0s1--------1--------------------------------|
B|--------3-------3--------3------------0s1--------1-----|
G|-----2-------------2---------------0-------0--------0--|
D|--0-----------------------------2-------------2--------|
A|-----------------------------3-------------------------|
E|-------------------------------------------------------|

Dm E Am

e|-----------1------------------------------------0-----|
B|--------3---------------0------------0s1--------------|
G|-----2---------------1------------2-------2--------2-*|
D|--0---------------2------------2-------------2-------*|
A|---------------2------------0-------------------------|
E|------------------------------------------------------|
 

A7 Dm И лампа не горит, A7 Dm И врут календари, Gm F Gm A7 И если ты давно хотела что-то мне сказать, Dm То говори.

Любой обманчив звук, Страшнее - тишина, Когда в самый разгар веселья падает из рук Бокал вина.

И черный кабинет, И ждет в стволе патрон, Так тихо, что я слышу, как идет на глубине

Вагон метро.

На площади полки, Темно в конце строки, И в телефонной трубке, хоть и много лет спустя, Одни гудки.

И где-то хлопнет дверь, И дрогнут провода. "Привет! Мы будем счастливы теперь И навсегда".

"Привет! Мы будем счастливы теперь И навсегда".

 

Перевести в тональность | A | A# | H | C | C# | D | D# | E | F | F# | G | G# |

Аккорды песен Сплин

Остались вопросы? Задавайте)

A7
Аппликатура аккорда A7

Dm
Аппликатура аккорда Dm

Gm
Аппликатура аккорда Gm

F
Аппликатура аккорда F